  0
SECTION
  2
HEADER
  9
$ACADVER
  1
AC1009
  9
$INSBASE
 10
158.5531483795016
 20
181.3886860648437
 30
0.0
  9
$EXTMIN
 10
158.0353814265352
 20
180.5602589401007
 30
0.0
  9
$EXTMAX
 10
227.0709153324569
 20
222.2171131895899
 30
0.0
  9
$LIMMIN
 10
0.0
 20
0.0
  9
$LIMMAX
 10
420.0
 20
297.0
  9
$ORTHOMODE
 70
     0
  9
$REGENMODE
 70
     0
  9
$FILLMODE
 70
     1
  9
$QTEXTMODE
 70
     0
  9
$MIRRTEXT
 70
     0
  9
$DRAGMODE
 70
     2
  9
$LTSCALE
 40
1.0
  9
$OSMODE
 70
     0
  9
$ATTMODE
 70
     1
  9
$TEXTSIZE
 40
3.5
  9
$TRACEWID
 40
0.1
  9
$TEXTSTYLE
  7
STANDARD
  9
$CLAYER
  8
0
  9
$CELTYPE
  6
BYLAYER
  9
$CECOLOR
 62
   256
  9
$DIMSCALE
 40
1.0
  9
$DIMASZ
 40
2.0
  9
$DIMEXO
 40
1.0
  9
$DIMDLI
 40
8.0
  9
$DIMRND
 40
0.0
  9
$DIMDLE
 40
0.0
  9
$DIMEXE
 40
2.0
  9
$DIMTP
 40
0.1
  9
$DIMTM
 40
0.1
  9
$DIMTXT
 40
3.5
  9
$DIMCEN
 40
2.0
  9
$DIMTSZ
 40
0.0
  9
$DIMTOL
 70
     0
  9
$DIMLIM
 70
     0
  9
$DIMTIH
 70
     0
  9
$DIMTOH
 70
     0
  9
$DIMSE1
 70
     0
  9
$DIMSE2
 70
     0
  9
$DIMTAD
 70
     1
  9
$DIMZIN
 70
     0
  9
$DIMBLK
  1

  9
$DIMASO
 70
     1
  9
$DIMSHO
 70
     0
  9
$DIMPOST
  1

  9
$DIMAPOST
  1

  9
$DIMALT
 70
     0
  9
$DIMALTD
 70
     2
  9
$DIMALTF
 40
25.39999999999999
  9
$DIMLFAC
 40
1.0
  9
$DIMTOFL
 70
     0
  9
$DIMTVP
 40
0.0
  9
$DIMTIX
 70
     0
  9
$DIMSOXD
 70
     0
  9
$DIMSAH
 70
     0
  9
$DIMBLK1
  1

  9
$DIMBLK2
  1

  9
$DIMSTYLE
  2
*UNNAMED
  9
$DIMCLRD
 70
     0
  9
$DIMCLRE
 70
     0
  9
$DIMCLRT
 70
     0
  9
$DIMTFAC
 40
1.0
  9
$DIMGAP
 40
0.09
  9
$LUNITS
 70
     2
  9
$LUPREC
 70
     3
  9
$SKETCHINC
 40
0.1
  9
$FILLETRAD
 40
20.0
  9
$AUNITS
 70
     0
  9
$AUPREC
 70
     1
  9
$MENU
  1

  9
$ELEVATION
 40
0.0
  9
$PELEVATION
 40
0.0
  9
$THICKNESS
 40
0.0
  9
$LIMCHECK
 70
     0
  9
$BLIPMODE
 70
     0
  9
$CHAMFERA
 40
0.0
  9
$CHAMFERB
 40
0.0
  9
$SKPOLY
 70
     1
  9
$TDCREATE
 40
2448558.599237036
  9
$TDUPDATE
 40
2449393.439813889
  9
$TDINDWG
 40
0.0005265046
  9
$TDUSRTIMER
 40
0.0005265046
  9
$USRTIMER
 70
     1
  9
$ANGBASE
 50
0.0
  9
$ANGDIR
 70
     0
  9
$PDMODE
 70
     0
  9
$PDSIZE
 40
0.0
  9
$PLINEWID
 40
0.0
  9
$COORDS
 70
     2
  9
$SPLFRAME
 70
     0
  9
$SPLINETYPE
 70
     6
  9
$SPLINESEGS
 70
     8
  9
$ATTDIA
 70
     1
  9
$ATTREQ
 70
     1
  9
$HANDLING
 70
     0
  9
$HANDSEED
  5
54
  9
$SURFTAB1
 70
     6
  9
$SURFTAB2
 70
     6
  9
$SURFTYPE
 70
     6
  9
$SURFU
 70
     6
  9
$SURFV
 70
     6
  9
$UCSNAME
  2

  9
$UCSORG
 10
0.0
 20
0.0
 30
0.0
  9
$UCSXDIR
 10
1.0
 20
0.0
 30
0.0
  9
$UCSYDIR
 10
0.0
 20
1.0
 30
0.0
  9
$PUCSNAME
  2

  9
$PUCSORG
 10
0.0
 20
0.0
 30
0.0
  9
$PUCSXDIR
 10
1.0
 20
0.0
 30
0.0
  9
$PUCSYDIR
 10
0.0
 20
1.0
 30
0.0
  9
$USERI1
 70
     0
  9
$USERI2
 70
     3
  9
$USERI3
 70
    15
  9
$USERI4
 70
     0
  9
$USERI5
 70
     0
  9
$USERR1
 40
1.0
  9
$USERR2
 40
1.0
  9
$USERR3
 40
0.0
  9
$USERR4
 40
1.0
  9
$USERR5
 40
0.0
  9
$WORLDVIEW
 70
     1
  9
$SHADEDGE
 70
     3
  9
$SHADEDIF
 70
    70
  9
$TILEMODE
 70
     1
  9
$MAXACTVP
 70
    16
  9
$PINSBASE
 10
0.0
 20
0.0
 30
0.0
  9
$PLIMCHECK
 70
     0
  9
$PEXTMIN
 10
1.000000000000000E+20
 20
1.000000000000000E+20
 30
1.000000000000000E+20
  9
$PEXTMAX
 10
-1.000000000000000E+20
 20
-1.000000000000000E+20
 30
-1.000000000000000E+20
  9
$PLIMMIN
 10
0.0
 20
0.0
  9
$PLIMMAX
 10
12.0
 20
9.0
  9
$UNITMODE
 70
     0
  9
$VISRETAIN
 70
     0
  9
$PLINEGEN
 70
     0
  9
$PSLTSCALE
 70
     0
  9
$TREEDEPTH
 70
  3020
  9
$DWGCODEPAGE
  3
undefined
  0
ENDSEC
  0
SECTION
  2
TABLES
  0
TABLE
  2
VPORT
 70
     2
  0
VPORT
  2
*ACTIVE
 70
     0
 10
0.0
 20
0.0
 11
1.0
 21
1.0
 12
192.5531483794961
 22
208.0412284377208
 13
0.0
 23
0.0
 14
1.0
 24
1.0
 15
10.0
 25
10.0
 16
0.0
 26
0.0
 36
1.0
 17
0.0
 27
0.0
 37
0.0
 40
53.30508474575401
 41
1.275675675675675
 42
50.0
 43
0.0
 44
0.0
 50
0.0
 51
0.0
 71
     0
 72
 20000
 73
     1
 74
     0
 75
     0
 76
     0
 77
     0
 78
     0
  0
ENDTAB
  0
TABLE
  2
LTYPE
 70
     1
  0
LTYPE
  2
AUSGEZOGEN
 70
    64
  3
Solid line
 72
    65
 73
     0
 40
0.0
  0
ENDTAB
  0
TABLE
  2
LAYER
 70
     4
  0
LAYER
  2
0
 70
     0
 62
     7
  6
AUSGEZOGEN
  0
LAYER
  2
ITEM_50
 70
    64
 62
     7
  6
AUSGEZOGEN
  0
LAYER
  2
ITEM_25
 70
    64
 62
     3
  6
AUSGEZOGEN
  0
LAYER
  2
ITEM_HILFE
 70
    64
 62
     3
  6
AUSGEZOGEN
  0
ENDTAB
  0
TABLE
  2
STYLE
 70
     1
  0
STYLE
  2
STANDARD
 70
     0
 40
0.0
 41
1.0
 50
0.0
 71
     0
 42
3.5
  3
iso
  4

  0
ENDTAB
  0
TABLE
  2
VIEW
 70
     0
  0
ENDTAB
  0
TABLE
  2
UCS
 70
     0
  0
ENDTAB
  0
TABLE
  2
APPID
 70
     1
  0
APPID
  2
ACAD
 70
    64
  0
ENDTAB
  0
TABLE
  2
DIMSTYLE
 70
     0
  0
ENDTAB
  0
ENDSEC
  0
SECTION
  2
BLOCKS
  0
ENDSEC
  0
SECTION
  2
ENTITIES
  0
POINT
  8
ITEM_HILFE
 10
162.5531483795016
 20
181.3886860648437
 30
0.0
  0
POINT
  8
ITEM_HILFE
 10
162.5531483795016
 20
221.3886860648469
 30
0.0
  0
POINT
  8
ITEM_HILFE
 10
158.5531483795016
 20
181.3886860648437
 30
0.0
  0
POINT
  8
ITEM_HILFE
 10
158.5531483795016
 20
221.3886860648469
 30
0.0
  0
LINE
  8
ITEM_25
 10
162.5531483795016
 20
193.3886860648304
 30
0.0
 11
158.5531483795016
 21
193.3886860648293
 31
0.0
  0
LINE
  8
ITEM_50
 10
162.5531483795016
 20
221.3886860648469
 30
0.0
 11
162.5531483795016
 21
181.3886860648437
 31
0.0
  0
ARC
  8
ITEM_50
 10
161.0531483795016
 20
183.8886860648437
 30
0.0
 40
2.5
 50
180.0
 51
269.9999999999999
  0
ARC
  8
ITEM_50
 10
161.0531483795016
 20
218.8886860648469
 30
0.0
 40
2.5
 50
90.0
 51
180.0
  0
LINE
  8
ITEM_50
 10
161.0531483795016
 20
181.3886860648437
 30
0.0
 11
162.5531483795016
 21
181.3886860648437
 31
0.0
  0
LINE
  8
ITEM_50
 10
158.5531483795016
 20
218.8886860648469
 30
0.0
 11
158.5531483795016
 21
183.8886860648437
 31
0.0
  0
LINE
  8
ITEM_50
 10
162.5531483795016
 20
221.3886860648469
 30
0.0
 11
161.0531483795016
 21
221.3886860648469
 31
0.0
  0
POINT
  8
ITEM_HILFE
 10
226.5531483794905
 20
181.3886860648437
 30
0.0
  0
POINT
  8
ITEM_HILFE
 10
226.5531483794905
 20
221.3886860648469
 30
0.0
  0
POINT
  8
ITEM_HILFE
 10
222.5531483794905
 20
181.3886860648437
 30
0.0
  0
POINT
  8
ITEM_HILFE
 10
222.5531483794905
 20
221.3886860648469
 30
0.0
  0
LINE
  8
ITEM_50
 10
222.5531483794905
 20
221.3886860648469
 30
0.0
 11
224.0531483794905
 21
221.3886860648469
 31
0.0
  0
LINE
  8
ITEM_50
 10
226.5531483794905
 20
218.8886860648469
 30
0.0
 11
226.5531483794905
 21
183.8886860648437
 31
0.0
  0
LINE
  8
ITEM_50
 10
224.0531483794905
 20
181.3886860648437
 30
0.0
 11
222.5531483794905
 21
181.3886860648437
 31
0.0
  0
ARC
  8
ITEM_50
 10
224.0531483794905
 20
218.8886860648469
 30
0.0
 40
2.5
 50
0.0
 51
90.0
  0
ARC
  8
ITEM_50
 10
224.0531483794905
 20
183.8886860648437
 30
0.0
 40
2.5
 50
270.0
 51
0.0
  0
LINE
  8
ITEM_50
 10
222.5531483794905
 20
221.3886860648469
 30
0.0
 11
222.5531483794905
 21
181.3886860648437
 31
0.0
  0
POINT
  8
ITEM_HILFE
 10
192.5531483795019
 20
201.3886860648457
 30
0.0
  0
POINT
  8
ITEM_HILFE
 10
198.4110127557498
 20
207.2465504411177
 30
0.0
  0
POINT
  8
ITEM_HILFE
 10
212.553148379505
 20
193.1044148173885
 30
0.0
  0
POINT
  8
ITEM_HILFE
 10
184.2688771319977
 20
221.3886860648438
 30
0.0
  0
POINT
  8
ITEM_HILFE
 10
212.5531483795051
 20
181.3886860648469
 30
0.0
  0
POINT
  8
ITEM_HILFE
 10
172.5531483795018
 20
221.3886860648438
 30
0.0
  0
POINT
  8
ITEM_HILFE
 10
172.5531483794985
 20
181.3886860648469
 30
0.0
  0
LINE
  8
ITEM_25
 10
210.053148379505
 20
191.4475605678939
 30
0.0
 11
210.0531483795051
 21
185.3886860648469
 31
0.0
  0
LINE
  8
ITEM_25
 10
183.6726830542863
 20
218.4493462366246
 30
0.0
 11
209.6138085512839
 21
192.5082207396747
 31
0.0
  0
LINE
  8
ITEM_25
 10
176.5531483795014
 20
218.8886860648438
 30
0.0
 11
182.6120228825075
 21
218.8886860648438
 31
0.0
  0
LINE
  8
ITEM_25
 10
208.5531483795051
 20
183.8886860648469
 30
0.0
 11
176.5531483794988
 21
183.8886860648469
 31
0.0
  0
LINE
  8
ITEM_25
 10
175.0531483794988
 20
185.388686064847
 30
0.0
 11
175.0531483795014
 21
217.3886860648439
 31
0.0
  0
ARC
  8
ITEM_50
 10
182.6120228825075
 20
217.3886860648438
 30
0.0
 40
4.0
 50
45.00000000005269
 51
89.9999999999998
  0
ARC
  8
ITEM_50
 10
176.5531483795014
 20
217.3886860648438
 30
0.0
 40
4.0
 50
90.0
 51
179.9999999999952
  0
ARC
  8
ITEM_50
 10
176.5531483794988
 20
185.3886860648469
 30
0.0
 40
4.0
 50
179.9999999999952
 51
270.0
  0
ARC
  8
ITEM_50
 10
208.5531483795051
 20
185.3886860648469
 30
0.0
 40
4.0
 50
270.0
 51
0.0000000000003053
  0
ARC
  8
ITEM_50
 10
208.553148379505
 20
191.4475605678939
 30
0.0
 40
4.0
 50
0.0000000000002799
 51
45.00000000005267
  0
LINE
  8
ITEM_50
 10
176.5531483795014
 20
221.3886860648438
 30
0.0
 11
182.6120228825075
 21
221.3886860648438
 31
0.0
  0
LINE
  8
ITEM_50
 10
172.5531483794988
 20
185.3886860648472
 30
0.0
 11
172.5531483795014
 21
217.3886860648441
 31
0.0
  0
LINE
  8
ITEM_50
 10
208.5531483795051
 20
181.3886860648469
 30
0.0
 11
176.5531483794988
 21
181.3886860648469
 31
0.0
  0
LINE
  8
ITEM_50
 10
212.553148379505
 20
191.447560567894
 30
0.0
 11
212.5531483795051
 21
185.3886860648469
 31
0.0
  0
LINE
  8
ITEM_50
 10
185.4404500072511
 20
220.2171131895926
 30
0.0
 11
211.3815755042486
 21
194.2759876926427
 31
0.0
  0
ENDSEC
  0
EOF
